ISO-10303-21;
HEADER;
/* Generated by software containing ST-Developer
 * from STEP Tools, Inc. (www.steptools.com) 
 */

FILE_DESCRIPTION(
/* description */ (''),
/* implementation_level */ '2;1');

FILE_NAME(
/* name */ 
'C:/Users/johannes/Documents/Modeller/BR/Receiver_D1_strain_relief.stp',

/* time_stamp */ '2017-04-03T23:38:39+02:00',
/* author */ (''),
/* organization */ (''),
/* preprocessor_version */ 'ST-DEVELOPER v16.5',
/* originating_system */ 'Autodesk Translation Framework v5.2.0.2920',
/* authorisation */ '');

FILE_SCHEMA (('AUTOMOTIVE_DESIGN { 1 0 10303 214 3 1 1 }'));
ENDSEC;

DATA;
#10=MECHANICAL_DESIGN_GEOMETRIC_PRESENTATION_REPRESENTATION('',(#140,#137,
#135,#136,#139,#138),#274);
#11=SHAPE_REPRESENTATION_RELATIONSHIP('SRR','None',#280,#12);
#12=ADVANCED_BREP_SHAPE_REPRESENTATION('',(#13),#273);
#13=MANIFOLD_SOLID_BREP('Body1',#154);
#14=TOROIDAL_SURFACE('',#166,7.40000000000001,1.);
#15=PLANE('',#163);
#16=PLANE('',#171);
#17=PLANE('',#177);
#18=PLANE('',#180);
#19=CYLINDRICAL_SURFACE('',#161,8.25);
#20=CYLINDRICAL_SURFACE('',#169,8.40000000000001);
#21=CYLINDRICAL_SURFACE('',#175,10.);
#22=FACE_BOUND('',#47,.T.);
#23=FACE_BOUND('',#49,.T.);
#24=FACE_BOUND('',#51,.T.);
#25=FACE_BOUND('',#54,.T.);
#26=FACE_BOUND('',#56,.T.);
#27=FACE_BOUND('',#58,.T.);
#28=FACE_BOUND('',#61,.T.);
#29=FACE_BOUND('',#63,.T.);
#30=FACE_BOUND('',#65,.T.);
#31=FACE_BOUND('',#67,.T.);
#32=FACE_BOUND('',#69,.T.);
#33=FACE_OUTER_BOUND('',#46,.T.);
#34=FACE_OUTER_BOUND('',#48,.T.);
#35=FACE_OUTER_BOUND('',#50,.T.);
#36=FACE_OUTER_BOUND('',#52,.T.);
#37=FACE_OUTER_BOUND('',#53,.T.);
#38=FACE_OUTER_BOUND('',#55,.T.);
#39=FACE_OUTER_BOUND('',#57,.T.);
#40=FACE_OUTER_BOUND('',#59,.T.);
#41=FACE_OUTER_BOUND('',#60,.T.);
#42=FACE_OUTER_BOUND('',#62,.T.);
#43=FACE_OUTER_BOUND('',#64,.T.);
#44=FACE_OUTER_BOUND('',#66,.T.);
#45=FACE_OUTER_BOUND('',#68,.T.);
#46=EDGE_LOOP('',(#106));
#47=EDGE_LOOP('',(#107));
#48=EDGE_LOOP('',(#108));
#49=EDGE_LOOP('',(#109));
#50=EDGE_LOOP('',(#110));
#51=EDGE_LOOP('',(#111));
#52=EDGE_LOOP('',(#112));
#53=EDGE_LOOP('',(#113));
#54=EDGE_LOOP('',(#114));
#55=EDGE_LOOP('',(#115));
#56=EDGE_LOOP('',(#116));
#57=EDGE_LOOP('',(#117));
#58=EDGE_LOOP('',(#118));
#59=EDGE_LOOP('',(#119));
#60=EDGE_LOOP('',(#120));
#61=EDGE_LOOP('',(#121));
#62=EDGE_LOOP('',(#122));
#63=EDGE_LOOP('',(#123));
#64=EDGE_LOOP('',(#124));
#65=EDGE_LOOP('',(#125));
#66=EDGE_LOOP('',(#126));
#67=EDGE_LOOP('',(#127));
#68=EDGE_LOOP('',(#128));
#69=EDGE_LOOP('',(#129));
#70=CIRCLE('',#157,4.55811642992419);
#71=CIRCLE('',#158,6.2);
#72=CIRCLE('',#160,8.25);
#73=CIRCLE('',#162,8.25);
#74=CIRCLE('',#164,4.5);
#75=CIRCLE('',#167,8.40000000000001);
#76=CIRCLE('',#168,7.40000000000001);
#77=CIRCLE('',#170,8.40000000000001);
#78=CIRCLE('',#173,10.);
#79=CIRCLE('',#174,9.50000000000001);
#80=CIRCLE('',#176,10.);
#81=CIRCLE('',#179,9.5);
#82=VERTEX_POINT('',#235);
#83=VERTEX_POINT('',#237);
#84=VERTEX_POINT('',#240);
#85=VERTEX_POINT('',#243);
#86=VERTEX_POINT('',#246);
#87=VERTEX_POINT('',#250);
#88=VERTEX_POINT('',#252);
#89=VERTEX_POINT('',#255);
#90=VERTEX_POINT('',#259);
#91=VERTEX_POINT('',#261);
#92=VERTEX_POINT('',#264);
#93=VERTEX_POINT('',#268);
#94=EDGE_CURVE('',#82,#82,#70,.T.);
#95=EDGE_CURVE('',#83,#83,#71,.T.);
#96=EDGE_CURVE('',#84,#84,#72,.T.);
#97=EDGE_CURVE('',#85,#85,#73,.T.);
#98=EDGE_CURVE('',#86,#86,#74,.T.);
#99=EDGE_CURVE('',#87,#87,#75,.T.);
#100=EDGE_CURVE('',#88,#88,#76,.T.);
#101=EDGE_CURVE('',#89,#89,#77,.T.);
#102=EDGE_CURVE('',#90,#90,#78,.T.);
#103=EDGE_CURVE('',#91,#91,#79,.T.);
#104=EDGE_CURVE('',#92,#92,#80,.T.);
#105=EDGE_CURVE('',#93,#93,#81,.T.);
#106=ORIENTED_EDGE('',*,*,#94,.T.);
#107=ORIENTED_EDGE('',*,*,#95,.F.);
#108=ORIENTED_EDGE('',*,*,#95,.T.);
#109=ORIENTED_EDGE('',*,*,#96,.F.);
#110=ORIENTED_EDGE('',*,*,#96,.T.);
#111=ORIENTED_EDGE('',*,*,#97,.F.);
#112=ORIENTED_EDGE('',*,*,#98,.F.);
#113=ORIENTED_EDGE('',*,*,#98,.T.);
#114=ORIENTED_EDGE('',*,*,#94,.F.);
#115=ORIENTED_EDGE('',*,*,#99,.T.);
#116=ORIENTED_EDGE('',*,*,#100,.T.);
#117=ORIENTED_EDGE('',*,*,#101,.T.);
#118=ORIENTED_EDGE('',*,*,#99,.F.);
#119=ORIENTED_EDGE('',*,*,#100,.F.);
#120=ORIENTED_EDGE('',*,*,#102,.T.);
#121=ORIENTED_EDGE('',*,*,#103,.T.);
#122=ORIENTED_EDGE('',*,*,#104,.F.);
#123=ORIENTED_EDGE('',*,*,#102,.F.);
#124=ORIENTED_EDGE('',*,*,#103,.F.);
#125=ORIENTED_EDGE('',*,*,#101,.F.);
#126=ORIENTED_EDGE('',*,*,#105,.T.);
#127=ORIENTED_EDGE('',*,*,#104,.T.);
#128=ORIENTED_EDGE('',*,*,#105,.F.);
#129=ORIENTED_EDGE('',*,*,#97,.T.);
#130=CONICAL_SURFACE('',#156,5.37905821496209,0.0607357110674418);
#131=CONICAL_SURFACE('',#159,7.225,0.32923171158387);
#132=CONICAL_SURFACE('',#165,4.52905821496209,0.029050040379369);
#133=CONICAL_SURFACE('',#172,9.75000000000001,0.785398163397448);
#134=CONICAL_SURFACE('',#178,9.75000000000001,0.785398163397461);
#135=STYLED_ITEM('',(#291),#141);
#136=STYLED_ITEM('',(#291),#142);
#137=STYLED_ITEM('',(#291),#143);
#138=STYLED_ITEM('',(#291),#144);
#139=STYLED_ITEM('',(#291),#145);
#140=STYLED_ITEM('',(#290),#13);
#141=ADVANCED_FACE('',(#33,#22),#130,.T.);
#142=ADVANCED_FACE('',(#34,#23),#131,.T.);
#143=ADVANCED_FACE('',(#35,#24),#19,.T.);
#144=ADVANCED_FACE('',(#36),#15,.T.);
#145=ADVANCED_FACE('',(#37,#25),#132,.T.);
#146=ADVANCED_FACE('',(#38,#26),#14,.T.);
#147=ADVANCED_FACE('',(#39,#27),#20,.T.);
#148=ADVANCED_FACE('',(#40),#16,.T.);
#149=ADVANCED_FACE('',(#41,#28),#133,.T.);
#150=ADVANCED_FACE('',(#42,#29),#21,.T.);
#151=ADVANCED_FACE('',(#43,#30),#17,.T.);
#152=ADVANCED_FACE('',(#44,#31),#134,.T.);
#153=ADVANCED_FACE('',(#45,#32),#18,.T.);
#154=CLOSED_SHELL('',(#141,#142,#143,#144,#145,#146,#147,#148,#149,#150,
#151,#152,#153));
#155=AXIS2_PLACEMENT_3D('placement',#233,#181,#182);
#156=AXIS2_PLACEMENT_3D('',#234,#183,#184);
#157=AXIS2_PLACEMENT_3D('',#236,#185,#186);
#158=AXIS2_PLACEMENT_3D('',#238,#187,#188);
#159=AXIS2_PLACEMENT_3D('',#239,#189,#190);
#160=AXIS2_PLACEMENT_3D('',#241,#191,#192);
#161=AXIS2_PLACEMENT_3D('',#242,#193,#194);
#162=AXIS2_PLACEMENT_3D('',#244,#195,#196);
#163=AXIS2_PLACEMENT_3D('',#245,#197,#198);
#164=AXIS2_PLACEMENT_3D('',#247,#199,#200);
#165=AXIS2_PLACEMENT_3D('',#248,#201,#202);
#166=AXIS2_PLACEMENT_3D('',#249,#203,#204);
#167=AXIS2_PLACEMENT_3D('',#251,#205,#206);
#168=AXIS2_PLACEMENT_3D('',#253,#207,#208);
#169=AXIS2_PLACEMENT_3D('',#254,#209,#210);
#170=AXIS2_PLACEMENT_3D('',#256,#211,#212);
#171=AXIS2_PLACEMENT_3D('',#257,#213,#214);
#172=AXIS2_PLACEMENT_3D('',#258,#215,#216);
#173=AXIS2_PLACEMENT_3D('',#260,#217,#218);
#174=AXIS2_PLACEMENT_3D('',#262,#219,#220);
#175=AXIS2_PLACEMENT_3D('',#263,#221,#222);
#176=AXIS2_PLACEMENT_3D('',#265,#223,#224);
#177=AXIS2_PLACEMENT_3D('',#266,#225,#226);
#178=AXIS2_PLACEMENT_3D('',#267,#227,#228);
#179=AXIS2_PLACEMENT_3D('',#269,#229,#230);
#180=AXIS2_PLACEMENT_3D('',#270,#231,#232);
#181=DIRECTION('axis',(0.,0.,1.));
#182=DIRECTION('refdir',(1.,0.,0.));
#183=DIRECTION('center_axis',(6.12785435669729E-17,-1.,0.));
#184=DIRECTION('ref_axis',(-6.12323399573677E-17,-3.75222861178525E-33,
-1.));
#185=DIRECTION('center_axis',(6.12785435669729E-17,-1.,0.));
#186=DIRECTION('ref_axis',(-6.12323399573677E-17,-3.75222861178525E-33,
-1.));
#187=DIRECTION('center_axis',(6.12785435669729E-17,-1.,0.));
#188=DIRECTION('ref_axis',(-6.12323399573677E-17,-3.75222861178525E-33,
-1.));
#189=DIRECTION('center_axis',(6.12785435669729E-17,-1.,0.));
#190=DIRECTION('ref_axis',(-6.12323399573677E-17,-3.75222861178525E-33,
-1.));
#191=DIRECTION('center_axis',(6.12785435669729E-17,-1.,0.));
#192=DIRECTION('ref_axis',(-6.12323399573677E-17,-3.75222861178525E-33,
-1.));
#193=DIRECTION('center_axis',(6.12785435669729E-17,-1.,0.));
#194=DIRECTION('ref_axis',(-6.12323399573677E-17,-3.75222861178525E-33,
-1.));
#195=DIRECTION('center_axis',(6.12785435669729E-17,-1.,0.));
#196=DIRECTION('ref_axis',(-6.12323399573677E-17,-3.75222861178525E-33,
-1.));
#197=DIRECTION('center_axis',(-6.12785435669729E-17,1.,0.));
#198=DIRECTION('ref_axis',(6.12323399573677E-17,3.75222861178525E-33,1.));
#199=DIRECTION('center_axis',(6.12785435669729E-17,-1.,0.));
#200=DIRECTION('ref_axis',(-6.12323399573677E-17,-3.75222861178525E-33,
-1.));
#201=DIRECTION('center_axis',(6.12785435669729E-17,-1.,0.));
#202=DIRECTION('ref_axis',(-6.12323399573677E-17,-3.75222861178525E-33,
-1.));
#203=DIRECTION('center_axis',(6.12785435669729E-17,-1.,0.));
#204=DIRECTION('ref_axis',(0.,0.,-1.));
#205=DIRECTION('center_axis',(6.12785435669729E-17,-1.,0.));
#206=DIRECTION('ref_axis',(-1.,-6.12785435669729E-17,1.22464679914735E-16));
#207=DIRECTION('center_axis',(-6.12785435669729E-17,1.,0.));
#208=DIRECTION('ref_axis',(-1.,-6.12785435669729E-17,1.22464679914735E-16));
#209=DIRECTION('center_axis',(6.12785435669729E-17,-1.,0.));
#210=DIRECTION('ref_axis',(1.,6.12785435669729E-17,0.));
#211=DIRECTION('center_axis',(6.12785435669729E-17,-1.,0.));
#212=DIRECTION('ref_axis',(1.,6.12785435669729E-17,0.));
#213=DIRECTION('center_axis',(6.12785435669729E-17,-1.,0.));
#214=DIRECTION('ref_axis',(0.,0.,-1.));
#215=DIRECTION('center_axis',(-6.12785435669732E-17,1.,0.));
#216=DIRECTION('ref_axis',(-1.,-6.12785435669732E-17,0.));
#217=DIRECTION('center_axis',(6.12785435669729E-17,-1.,0.));
#218=DIRECTION('ref_axis',(-1.,-6.12785435669729E-17,0.));
#219=DIRECTION('center_axis',(-6.12785435669729E-17,1.,0.));
#220=DIRECTION('ref_axis',(-1.,-6.12785435669729E-17,0.));
#221=DIRECTION('center_axis',(6.12785435669729E-17,-1.,0.));
#222=DIRECTION('ref_axis',(1.,6.12785435669729E-17,0.));
#223=DIRECTION('center_axis',(-6.12785435669729E-17,1.,0.));
#224=DIRECTION('ref_axis',(-1.,-6.12785435669729E-17,0.));
#225=DIRECTION('center_axis',(6.12785435669729E-17,-1.,0.));
#226=DIRECTION('ref_axis',(0.,0.,-1.));
#227=DIRECTION('center_axis',(6.12785435669737E-17,-1.,0.));
#228=DIRECTION('ref_axis',(-1.,-6.12785435669737E-17,0.));
#229=DIRECTION('center_axis',(6.12785435669729E-17,-1.,0.));
#230=DIRECTION('ref_axis',(-1.,-6.12785435669729E-17,0.));
#231=DIRECTION('center_axis',(-6.12785435669729E-17,1.,0.));
#232=DIRECTION('ref_axis',(0.,0.,1.));
#233=CARTESIAN_POINT('',(0.,0.,0.));
#234=CARTESIAN_POINT('Origin',(-1.0505665601526E-14,59.,0.));
#235=CARTESIAN_POINT('',(-1.16120300744826E-14,72.5,-4.55811642992419));
#236=CARTESIAN_POINT('Origin',(-1.13329259396802E-14,72.5,0.));
#237=CARTESIAN_POINT('',(-1.00580457711076E-14,45.5,-6.2));
#238=CARTESIAN_POINT('Origin',(-9.6784052633719E-15,45.5,0.));
#239=CARTESIAN_POINT('Origin',(-9.49456963267098E-15,42.5,0.));
#240=CARTESIAN_POINT('',(-9.81590080661835E-15,39.5,-8.25));
#241=CARTESIAN_POINT('Origin',(-9.31073400197006E-15,39.5,0.));
#242=CARTESIAN_POINT('Origin',(-9.09625909948566E-15,36.,0.));
#243=CARTESIAN_POINT('',(-9.38695100164953E-15,32.5,-8.25));
#244=CARTESIAN_POINT('Origin',(-8.88178419700125E-15,32.5,0.));
#245=CARTESIAN_POINT('Origin',(-1.17310285566223E-14,74.5,-4.5));
#246=CARTESIAN_POINT('',(-1.17310285566223E-14,74.5,-4.5));
#247=CARTESIAN_POINT('Origin',(-1.14554830268141E-14,74.5,0.));
#248=CARTESIAN_POINT('Origin',(-1.13942044832471E-14,73.5,0.));
#249=CARTESIAN_POINT('Origin',(-5.33483791053647E-15,-37.5,0.));
#250=CARTESIAN_POINT('',(8.4,-37.5,0.));
#251=CARTESIAN_POINT('Origin',(-5.33483791053647E-15,-37.5,0.));
#252=CARTESIAN_POINT('',(7.4,-38.5,-1.81247726273808E-15));
#253=CARTESIAN_POINT('Origin',(-5.27355936696949E-15,-38.5,0.));
#254=CARTESIAN_POINT('Origin',(-5.79442698728876E-15,-30.,0.));
#255=CARTESIAN_POINT('',(8.4,-21.5,0.));
#256=CARTESIAN_POINT('Origin',(-6.31529460760803E-15,-21.5,0.));
#257=CARTESIAN_POINT('Origin',(-5.27355936696949E-15,-38.5,0.));
#258=CARTESIAN_POINT('Origin',(-6.33061424349978E-15,-21.25,0.));
#259=CARTESIAN_POINT('',(10.,-21.,1.22464679914735E-15));
#260=CARTESIAN_POINT('Origin',(-6.34593387939152E-15,-21.,0.));
#261=CARTESIAN_POINT('',(9.5,-21.5,-1.16341445918999E-15));
#262=CARTESIAN_POINT('Origin',(-6.31529460760803E-15,-21.5,0.));
#263=CARTESIAN_POINT('Origin',(-7.9698152839163E-15,5.5,0.));
#264=CARTESIAN_POINT('',(10.,32.,-1.22464679914735E-15));
#265=CARTESIAN_POINT('Origin',(-9.59369668844109E-15,32.,0.));
#266=CARTESIAN_POINT('Origin',(8.4,-21.5,0.));
#267=CARTESIAN_POINT('Origin',(-9.60901632433283E-15,32.25,0.));
#268=CARTESIAN_POINT('',(9.49999999999999,32.5,1.16341445918999E-15));
#269=CARTESIAN_POINT('Origin',(-9.62433596022457E-15,32.5,0.));
#270=CARTESIAN_POINT('Origin',(9.99999999999999,32.5,0.));
#271=UNCERTAINTY_MEASURE_WITH_UNIT(LENGTH_MEASURE(0.01),#275,
'DISTANCE_ACCURACY_VALUE',
'Maximum model space distance between geometric entities at asserted c
onnectivities');
#272=UNCERTAINTY_MEASURE_WITH_UNIT(LENGTH_MEASURE(0.01),#275,
'DISTANCE_ACCURACY_VALUE',
'Maximum model space distance between geometric entities at asserted c
onnectivities');
#273=(
GEOMETRIC_REPRESENTATION_CONTEXT(3)
GLOBAL_UNCERTAINTY_ASSIGNED_CONTEXT((#271))
GLOBAL_UNIT_ASSIGNED_CONTEXT((#275,#277,#276))
REPRESENTATION_CONTEXT('','3D')
);
#274=(
GEOMETRIC_REPRESENTATION_CONTEXT(3)
GLOBAL_UNCERTAINTY_ASSIGNED_CONTEXT((#272))
GLOBAL_UNIT_ASSIGNED_CONTEXT((#275,#277,#276))
REPRESENTATION_CONTEXT('','3D')
);
#275=(
LENGTH_UNIT()
NAMED_UNIT(*)
SI_UNIT(.MILLI.,.METRE.)
);
#276=(
NAMED_UNIT(*)
SI_UNIT($,.STERADIAN.)
SOLID_ANGLE_UNIT()
);
#277=(
NAMED_UNIT(*)
PLANE_ANGLE_UNIT()
SI_UNIT($,.RADIAN.)
);
#278=SHAPE_DEFINITION_REPRESENTATION(#279,#280);
#279=PRODUCT_DEFINITION_SHAPE('',$,#282);
#280=SHAPE_REPRESENTATION('',(#155),#273);
#281=PRODUCT_DEFINITION_CONTEXT('part definition',#286,'design');
#282=PRODUCT_DEFINITION('Receiver_D1_strain_relief',
'Receiver_D1_strain_relief',#283,#281);
#283=PRODUCT_DEFINITION_FORMATION('',$,#288);
#284=PRODUCT_RELATED_PRODUCT_CATEGORY('Receiver_D1_strain_relief',
'Receiver_D1_strain_relief',(#288));
#285=APPLICATION_PROTOCOL_DEFINITION('international standard',
'automotive_design',2009,#286);
#286=APPLICATION_CONTEXT(
'Core Data for Automotive Mechanical Design Process');
#287=PRODUCT_CONTEXT('part definition',#286,'mechanical');
#288=PRODUCT('Receiver_D1_strain_relief','Receiver_D1_strain_relief',$,
(#287));
#289=PRESENTATION_STYLE_ASSIGNMENT((#292));
#290=PRESENTATION_STYLE_ASSIGNMENT((#293));
#291=PRESENTATION_STYLE_ASSIGNMENT((#294));
#292=SURFACE_STYLE_USAGE(.BOTH.,#295);
#293=SURFACE_STYLE_USAGE(.BOTH.,#296);
#294=SURFACE_STYLE_USAGE(.BOTH.,#297);
#295=SURFACE_SIDE_STYLE('',(#298));
#296=SURFACE_SIDE_STYLE('',(#299));
#297=SURFACE_SIDE_STYLE('',(#300));
#298=SURFACE_STYLE_FILL_AREA(#301);
#299=SURFACE_STYLE_FILL_AREA(#302);
#300=SURFACE_STYLE_FILL_AREA(#303);
#301=FILL_AREA_STYLE('Steel - Satin',(#304));
#302=FILL_AREA_STYLE('Paek (Beige)',(#305));
#303=FILL_AREA_STYLE('Plastic - Glossy (Black)',(#306));
#304=FILL_AREA_STYLE_COLOUR('Steel - Satin',#307);
#305=FILL_AREA_STYLE_COLOUR('Paek (Beige)',#308);
#306=FILL_AREA_STYLE_COLOUR('Plastic - Glossy (Black)',#309);
#307=COLOUR_RGB('Steel - Satin',0.627450980392157,0.627450980392157,0.627450980392157);
#308=COLOUR_RGB('Paek (Beige)',0.898039215686275,0.792156862745098,0.619607843137255);
#309=COLOUR_RGB('Plastic - Glossy (Black)',0.0980392156862745,0.0980392156862745,
0.0980392156862745);
ENDSEC;
END-ISO-10303-21;
