ISO-10303-21;
HEADER;
/* Generated by software containing ST-Developer
 * from STEP Tools, Inc. (www.steptools.com) 
 */

FILE_DESCRIPTION(
/* description */ (''),
/* implementation_level */ '2;1');

FILE_NAME(
/* name */ 
'C:/Users/johannes/Documents/Modeller/BR/Locator_A1_strain_relief.stp',

/* time_stamp */ '2017-04-03T23:23:38+02:00',
/* author */ (''),
/* organization */ (''),
/* preprocessor_version */ 'ST-DEVELOPER v16.5',
/* originating_system */ 'Autodesk Translation Framework v5.2.0.2920',
/* authorisation */ '');

FILE_SCHEMA (('AUTOMOTIVE_DESIGN { 1 0 10303 214 3 1 1 }'));
ENDSEC;

DATA;
#10=MECHANICAL_DESIGN_GEOMETRIC_PRESENTATION_REPRESENTATION('',(#135,#137,
#139,#140,#138,#136),#274);
#11=SHAPE_REPRESENTATION_RELATIONSHIP('SRR','None',#280,#12);
#12=ADVANCED_BREP_SHAPE_REPRESENTATION('',(#13),#273);
#13=MANIFOLD_SOLID_BREP('Body1',#154);
#14=TOROIDAL_SURFACE('',#178,7.40000000000005,1.);
#15=PLANE('',#163);
#16=PLANE('',#166);
#17=PLANE('',#175);
#18=PLANE('',#176);
#19=CYLINDRICAL_SURFACE('',#161,8.25);
#20=CYLINDRICAL_SURFACE('',#171,10.);
#21=CYLINDRICAL_SURFACE('',#180,8.40000000000005);
#22=FACE_BOUND('',#47,.T.);
#23=FACE_BOUND('',#49,.T.);
#24=FACE_BOUND('',#51,.T.);
#25=FACE_BOUND('',#54,.T.);
#26=FACE_BOUND('',#56,.T.);
#27=FACE_BOUND('',#58,.T.);
#28=FACE_BOUND('',#60,.T.);
#29=FACE_BOUND('',#62,.T.);
#30=FACE_BOUND('',#64,.T.);
#31=FACE_BOUND('',#67,.T.);
#32=FACE_BOUND('',#69,.T.);
#33=FACE_OUTER_BOUND('',#46,.T.);
#34=FACE_OUTER_BOUND('',#48,.T.);
#35=FACE_OUTER_BOUND('',#50,.T.);
#36=FACE_OUTER_BOUND('',#52,.T.);
#37=FACE_OUTER_BOUND('',#53,.T.);
#38=FACE_OUTER_BOUND('',#55,.T.);
#39=FACE_OUTER_BOUND('',#57,.T.);
#40=FACE_OUTER_BOUND('',#59,.T.);
#41=FACE_OUTER_BOUND('',#61,.T.);
#42=FACE_OUTER_BOUND('',#63,.T.);
#43=FACE_OUTER_BOUND('',#65,.T.);
#44=FACE_OUTER_BOUND('',#66,.T.);
#45=FACE_OUTER_BOUND('',#68,.T.);
#46=EDGE_LOOP('',(#106));
#47=EDGE_LOOP('',(#107));
#48=EDGE_LOOP('',(#108));
#49=EDGE_LOOP('',(#109));
#50=EDGE_LOOP('',(#110));
#51=EDGE_LOOP('',(#111));
#52=EDGE_LOOP('',(#112));
#53=EDGE_LOOP('',(#113));
#54=EDGE_LOOP('',(#114));
#55=EDGE_LOOP('',(#115));
#56=EDGE_LOOP('',(#116));
#57=EDGE_LOOP('',(#117));
#58=EDGE_LOOP('',(#118));
#59=EDGE_LOOP('',(#119));
#60=EDGE_LOOP('',(#120));
#61=EDGE_LOOP('',(#121));
#62=EDGE_LOOP('',(#122));
#63=EDGE_LOOP('',(#123));
#64=EDGE_LOOP('',(#124));
#65=EDGE_LOOP('',(#125));
#66=EDGE_LOOP('',(#126));
#67=EDGE_LOOP('',(#127));
#68=EDGE_LOOP('',(#128));
#69=EDGE_LOOP('',(#129));
#70=CIRCLE('',#157,4.55811642992419);
#71=CIRCLE('',#158,6.2);
#72=CIRCLE('',#160,8.25);
#73=CIRCLE('',#162,8.25);
#74=CIRCLE('',#164,4.5);
#75=CIRCLE('',#167,9.5);
#76=CIRCLE('',#168,8.40000000000005);
#77=CIRCLE('',#170,10.);
#78=CIRCLE('',#172,10.);
#79=CIRCLE('',#174,9.5);
#80=CIRCLE('',#177,7.40000000000004);
#81=CIRCLE('',#179,8.40000000000005);
#82=VERTEX_POINT('',#235);
#83=VERTEX_POINT('',#237);
#84=VERTEX_POINT('',#240);
#85=VERTEX_POINT('',#243);
#86=VERTEX_POINT('',#246);
#87=VERTEX_POINT('',#250);
#88=VERTEX_POINT('',#252);
#89=VERTEX_POINT('',#255);
#90=VERTEX_POINT('',#258);
#91=VERTEX_POINT('',#261);
#92=VERTEX_POINT('',#265);
#93=VERTEX_POINT('',#268);
#94=EDGE_CURVE('',#82,#82,#70,.T.);
#95=EDGE_CURVE('',#83,#83,#71,.T.);
#96=EDGE_CURVE('',#84,#84,#72,.T.);
#97=EDGE_CURVE('',#85,#85,#73,.T.);
#98=EDGE_CURVE('',#86,#86,#74,.T.);
#99=EDGE_CURVE('',#87,#87,#75,.T.);
#100=EDGE_CURVE('',#88,#88,#76,.T.);
#101=EDGE_CURVE('',#89,#89,#77,.T.);
#102=EDGE_CURVE('',#90,#90,#78,.T.);
#103=EDGE_CURVE('',#91,#91,#79,.T.);
#104=EDGE_CURVE('',#92,#92,#80,.T.);
#105=EDGE_CURVE('',#93,#93,#81,.T.);
#106=ORIENTED_EDGE('',*,*,#94,.T.);
#107=ORIENTED_EDGE('',*,*,#95,.F.);
#108=ORIENTED_EDGE('',*,*,#95,.T.);
#109=ORIENTED_EDGE('',*,*,#96,.F.);
#110=ORIENTED_EDGE('',*,*,#96,.T.);
#111=ORIENTED_EDGE('',*,*,#97,.F.);
#112=ORIENTED_EDGE('',*,*,#98,.F.);
#113=ORIENTED_EDGE('',*,*,#98,.T.);
#114=ORIENTED_EDGE('',*,*,#94,.F.);
#115=ORIENTED_EDGE('',*,*,#99,.F.);
#116=ORIENTED_EDGE('',*,*,#100,.T.);
#117=ORIENTED_EDGE('',*,*,#99,.T.);
#118=ORIENTED_EDGE('',*,*,#101,.F.);
#119=ORIENTED_EDGE('',*,*,#101,.T.);
#120=ORIENTED_EDGE('',*,*,#102,.F.);
#121=ORIENTED_EDGE('',*,*,#102,.T.);
#122=ORIENTED_EDGE('',*,*,#103,.F.);
#123=ORIENTED_EDGE('',*,*,#103,.T.);
#124=ORIENTED_EDGE('',*,*,#97,.T.);
#125=ORIENTED_EDGE('',*,*,#104,.F.);
#126=ORIENTED_EDGE('',*,*,#104,.T.);
#127=ORIENTED_EDGE('',*,*,#105,.F.);
#128=ORIENTED_EDGE('',*,*,#105,.T.);
#129=ORIENTED_EDGE('',*,*,#100,.F.);
#130=CONICAL_SURFACE('',#156,5.37905821496209,0.0607357110674418);
#131=CONICAL_SURFACE('',#159,7.225,0.32923171158387);
#132=CONICAL_SURFACE('',#165,4.52905821496209,0.029050040379369);
#133=CONICAL_SURFACE('',#169,9.75,0.785398163397448);
#134=CONICAL_SURFACE('',#173,9.75,0.785398163397451);
#135=STYLED_ITEM('',(#291),#141);
#136=STYLED_ITEM('',(#291),#142);
#137=STYLED_ITEM('',(#291),#143);
#138=STYLED_ITEM('',(#291),#144);
#139=STYLED_ITEM('',(#291),#145);
#140=STYLED_ITEM('',(#290),#13);
#141=ADVANCED_FACE('',(#33,#22),#130,.T.);
#142=ADVANCED_FACE('',(#34,#23),#131,.T.);
#143=ADVANCED_FACE('',(#35,#24),#19,.T.);
#144=ADVANCED_FACE('',(#36),#15,.T.);
#145=ADVANCED_FACE('',(#37,#25),#132,.T.);
#146=ADVANCED_FACE('',(#38,#26),#16,.T.);
#147=ADVANCED_FACE('',(#39,#27),#133,.T.);
#148=ADVANCED_FACE('',(#40,#28),#20,.T.);
#149=ADVANCED_FACE('',(#41,#29),#134,.T.);
#150=ADVANCED_FACE('',(#42,#30),#17,.T.);
#151=ADVANCED_FACE('',(#43),#18,.T.);
#152=ADVANCED_FACE('',(#44,#31),#14,.T.);
#153=ADVANCED_FACE('',(#45,#32),#21,.T.);
#154=CLOSED_SHELL('',(#141,#142,#143,#144,#145,#146,#147,#148,#149,#150,
#151,#152,#153));
#155=AXIS2_PLACEMENT_3D('placement',#233,#181,#182);
#156=AXIS2_PLACEMENT_3D('',#234,#183,#184);
#157=AXIS2_PLACEMENT_3D('',#236,#185,#186);
#158=AXIS2_PLACEMENT_3D('',#238,#187,#188);
#159=AXIS2_PLACEMENT_3D('',#239,#189,#190);
#160=AXIS2_PLACEMENT_3D('',#241,#191,#192);
#161=AXIS2_PLACEMENT_3D('',#242,#193,#194);
#162=AXIS2_PLACEMENT_3D('',#244,#195,#196);
#163=AXIS2_PLACEMENT_3D('',#245,#197,#198);
#164=AXIS2_PLACEMENT_3D('',#247,#199,#200);
#165=AXIS2_PLACEMENT_3D('',#248,#201,#202);
#166=AXIS2_PLACEMENT_3D('',#249,#203,#204);
#167=AXIS2_PLACEMENT_3D('',#251,#205,#206);
#168=AXIS2_PLACEMENT_3D('',#253,#207,#208);
#169=AXIS2_PLACEMENT_3D('',#254,#209,#210);
#170=AXIS2_PLACEMENT_3D('',#256,#211,#212);
#171=AXIS2_PLACEMENT_3D('',#257,#213,#214);
#172=AXIS2_PLACEMENT_3D('',#259,#215,#216);
#173=AXIS2_PLACEMENT_3D('',#260,#217,#218);
#174=AXIS2_PLACEMENT_3D('',#262,#219,#220);
#175=AXIS2_PLACEMENT_3D('',#263,#221,#222);
#176=AXIS2_PLACEMENT_3D('',#264,#223,#224);
#177=AXIS2_PLACEMENT_3D('',#266,#225,#226);
#178=AXIS2_PLACEMENT_3D('',#267,#227,#228);
#179=AXIS2_PLACEMENT_3D('',#269,#229,#230);
#180=AXIS2_PLACEMENT_3D('',#270,#231,#232);
#181=DIRECTION('axis',(0.,0.,1.));
#182=DIRECTION('refdir',(1.,0.,0.));
#183=DIRECTION('center_axis',(0.,0.,1.));
#184=DIRECTION('ref_axis',(1.,1.22464679914735E-16,0.));
#185=DIRECTION('center_axis',(0.,0.,1.));
#186=DIRECTION('ref_axis',(1.,1.22464679914735E-16,0.));
#187=DIRECTION('center_axis',(0.,0.,1.));
#188=DIRECTION('ref_axis',(1.,1.22464679914735E-16,0.));
#189=DIRECTION('center_axis',(0.,0.,1.));
#190=DIRECTION('ref_axis',(1.,1.22464679914735E-16,0.));
#191=DIRECTION('center_axis',(0.,0.,1.));
#192=DIRECTION('ref_axis',(1.,1.22464679914735E-16,0.));
#193=DIRECTION('center_axis',(0.,0.,1.));
#194=DIRECTION('ref_axis',(1.,1.22464679914735E-16,0.));
#195=DIRECTION('center_axis',(0.,0.,1.));
#196=DIRECTION('ref_axis',(1.,1.22464679914735E-16,0.));
#197=DIRECTION('center_axis',(0.,0.,-1.));
#198=DIRECTION('ref_axis',(-1.,-1.22464679914735E-16,0.));
#199=DIRECTION('center_axis',(0.,0.,1.));
#200=DIRECTION('ref_axis',(1.,1.22464679914735E-16,0.));
#201=DIRECTION('center_axis',(0.,0.,1.));
#202=DIRECTION('ref_axis',(1.,1.22464679914735E-16,0.));
#203=DIRECTION('center_axis',(0.,0.,1.));
#204=DIRECTION('ref_axis',(1.,0.,0.));
#205=DIRECTION('center_axis',(0.,0.,-1.));
#206=DIRECTION('ref_axis',(1.,0.,0.));
#207=DIRECTION('center_axis',(0.,0.,-1.));
#208=DIRECTION('ref_axis',(1.,0.,0.));
#209=DIRECTION('center_axis',(0.,0.,-1.));
#210=DIRECTION('ref_axis',(0.,1.,0.));
#211=DIRECTION('center_axis',(0.,0.,-1.));
#212=DIRECTION('ref_axis',(1.,0.,0.));
#213=DIRECTION('center_axis',(0.,0.,-1.));
#214=DIRECTION('ref_axis',(0.,1.,0.));
#215=DIRECTION('center_axis',(0.,0.,-1.));
#216=DIRECTION('ref_axis',(1.,0.,0.));
#217=DIRECTION('center_axis',(0.,0.,1.));
#218=DIRECTION('ref_axis',(0.,1.,0.));
#219=DIRECTION('center_axis',(0.,0.,-1.));
#220=DIRECTION('ref_axis',(1.,0.,0.));
#221=DIRECTION('center_axis',(0.,0.,-1.));
#222=DIRECTION('ref_axis',(-1.,0.,0.));
#223=DIRECTION('center_axis',(0.,0.,1.));
#224=DIRECTION('ref_axis',(1.,0.,0.));
#225=DIRECTION('center_axis',(0.,0.,-1.));
#226=DIRECTION('ref_axis',(1.,0.,0.));
#227=DIRECTION('center_axis',(0.,0.,-1.));
#228=DIRECTION('ref_axis',(-1.,0.,0.));
#229=DIRECTION('center_axis',(0.,0.,-1.));
#230=DIRECTION('ref_axis',(1.,0.,0.));
#231=DIRECTION('center_axis',(0.,0.,-1.));
#232=DIRECTION('ref_axis',(0.,1.,0.));
#233=CARTESIAN_POINT('',(0.,0.,0.));
#234=CARTESIAN_POINT('Origin',(0.,0.,-50.5));
#235=CARTESIAN_POINT('',(4.55811642992419,5.58208269604762E-16,-64.));
#236=CARTESIAN_POINT('Origin',(0.,0.,-64.));
#237=CARTESIAN_POINT('',(6.2,7.59281015471359E-16,-37.));
#238=CARTESIAN_POINT('Origin',(0.,0.,-37.));
#239=CARTESIAN_POINT('Origin',(0.,0.,-34.));
#240=CARTESIAN_POINT('',(8.25,1.01033360929657E-15,-31.));
#241=CARTESIAN_POINT('Origin',(0.,0.,-31.));
#242=CARTESIAN_POINT('Origin',(0.,0.,-27.5));
#243=CARTESIAN_POINT('',(8.25,1.01033360929657E-15,-24.));
#244=CARTESIAN_POINT('Origin',(0.,0.,-24.));
#245=CARTESIAN_POINT('Origin',(4.5,5.51091059616309E-16,-66.));
#246=CARTESIAN_POINT('',(4.5,5.51091059616309E-16,-66.));
#247=CARTESIAN_POINT('Origin',(0.,0.,-66.));
#248=CARTESIAN_POINT('Origin',(0.,0.,-65.));
#249=CARTESIAN_POINT('Origin',(0.,9.5,0.));
#250=CARTESIAN_POINT('',(0.,9.5,0.));
#251=CARTESIAN_POINT('Origin',(0.,0.,0.));
#252=CARTESIAN_POINT('',(0.,8.40000000000005,0.));
#253=CARTESIAN_POINT('Origin',(0.,0.,0.));
#254=CARTESIAN_POINT('Origin',(0.,0.,-0.25));
#255=CARTESIAN_POINT('',(0.,10.,-0.5));
#256=CARTESIAN_POINT('Origin',(0.,0.,-0.5));
#257=CARTESIAN_POINT('Origin',(0.,0.,-12.));
#258=CARTESIAN_POINT('',(0.,10.,-23.5));
#259=CARTESIAN_POINT('Origin',(0.,0.,-23.5));
#260=CARTESIAN_POINT('Origin',(0.,0.,-23.75));
#261=CARTESIAN_POINT('',(0.,9.5,-24.));
#262=CARTESIAN_POINT('Origin',(0.,0.,-24.));
#263=CARTESIAN_POINT('Origin',(0.,6.00000000000011,-24.));
#264=CARTESIAN_POINT('Origin',(0.,7.40000000000004,17.400000320375));
#265=CARTESIAN_POINT('',(0.,7.40000000000004,17.400000320375));
#266=CARTESIAN_POINT('Origin',(0.,0.,17.400000320375));
#267=CARTESIAN_POINT('Origin',(0.,0.,16.400000320375));
#268=CARTESIAN_POINT('',(0.,8.40000000000005,16.400000320375));
#269=CARTESIAN_POINT('Origin',(0.,0.,16.400000320375));
#270=CARTESIAN_POINT('Origin',(0.,0.,8.2000001601875));
#271=UNCERTAINTY_MEASURE_WITH_UNIT(LENGTH_MEASURE(0.01),#275,
'DISTANCE_ACCURACY_VALUE',
'Maximum model space distance between geometric entities at asserted c
onnectivities');
#272=UNCERTAINTY_MEASURE_WITH_UNIT(LENGTH_MEASURE(0.01),#275,
'DISTANCE_ACCURACY_VALUE',
'Maximum model space distance between geometric entities at asserted c
onnectivities');
#273=(
GEOMETRIC_REPRESENTATION_CONTEXT(3)
GLOBAL_UNCERTAINTY_ASSIGNED_CONTEXT((#271))
GLOBAL_UNIT_ASSIGNED_CONTEXT((#275,#277,#276))
REPRESENTATION_CONTEXT('','3D')
);
#274=(
GEOMETRIC_REPRESENTATION_CONTEXT(3)
GLOBAL_UNCERTAINTY_ASSIGNED_CONTEXT((#272))
GLOBAL_UNIT_ASSIGNED_CONTEXT((#275,#277,#276))
REPRESENTATION_CONTEXT('','3D')
);
#275=(
LENGTH_UNIT()
NAMED_UNIT(*)
SI_UNIT(.MILLI.,.METRE.)
);
#276=(
NAMED_UNIT(*)
SI_UNIT($,.STERADIAN.)
SOLID_ANGLE_UNIT()
);
#277=(
NAMED_UNIT(*)
PLANE_ANGLE_UNIT()
SI_UNIT($,.RADIAN.)
);
#278=SHAPE_DEFINITION_REPRESENTATION(#279,#280);
#279=PRODUCT_DEFINITION_SHAPE('',$,#282);
#280=SHAPE_REPRESENTATION('',(#155),#273);
#281=PRODUCT_DEFINITION_CONTEXT('part definition',#286,'design');
#282=PRODUCT_DEFINITION('Locator_A1 (1)','Locator_A1 (1)',#283,#281);
#283=PRODUCT_DEFINITION_FORMATION('',$,#288);
#284=PRODUCT_RELATED_PRODUCT_CATEGORY('Locator_A1 (1)','Locator_A1 (1)',
(#288));
#285=APPLICATION_PROTOCOL_DEFINITION('international standard',
'automotive_design',2009,#286);
#286=APPLICATION_CONTEXT(
'Core Data for Automotive Mechanical Design Process');
#287=PRODUCT_CONTEXT('part definition',#286,'mechanical');
#288=PRODUCT('Locator_A1 (1)','Locator_A1 (1)',$,(#287));
#289=PRESENTATION_STYLE_ASSIGNMENT((#292));
#290=PRESENTATION_STYLE_ASSIGNMENT((#293));
#291=PRESENTATION_STYLE_ASSIGNMENT((#294));
#292=SURFACE_STYLE_USAGE(.BOTH.,#295);
#293=SURFACE_STYLE_USAGE(.BOTH.,#296);
#294=SURFACE_STYLE_USAGE(.BOTH.,#297);
#295=SURFACE_SIDE_STYLE('',(#298));
#296=SURFACE_SIDE_STYLE('',(#299));
#297=SURFACE_SIDE_STYLE('',(#300));
#298=SURFACE_STYLE_FILL_AREA(#301);
#299=SURFACE_STYLE_FILL_AREA(#302);
#300=SURFACE_STYLE_FILL_AREA(#303);
#301=FILL_AREA_STYLE('Steel - Satin',(#304));
#302=FILL_AREA_STYLE('Paek (Beige)',(#305));
#303=FILL_AREA_STYLE('Opaque(180,180,180)',(#306));
#304=FILL_AREA_STYLE_COLOUR('Steel - Satin',#307);
#305=FILL_AREA_STYLE_COLOUR('Paek (Beige)',#308);
#306=FILL_AREA_STYLE_COLOUR('Opaque(180,180,180)',#309);
#307=COLOUR_RGB('Steel - Satin',0.627450980392157,0.627450980392157,0.627450980392157);
#308=COLOUR_RGB('Paek (Beige)',0.898039215686275,0.792156862745098,0.619607843137255);
#309=COLOUR_RGB('Opaque(180,180,180)',0.184313725490196,0.184313725490196,
0.184313725490196);
ENDSEC;
END-ISO-10303-21;
